ISO-10303-21;
HEADER;
/* Generated by software containing ST-Developer
 * from STEP Tools, Inc. (www.steptools.com) 
 */
/* OPTION: using custom schema-name function */

FILE_DESCRIPTION(
/* description */ (''),
/* implementation_level */ '2;1');

FILE_NAME(
/* name */ 'Q LIMIT SELECTOR_STEP214',
/* time_stamp */ '2008-08-13T11:11:37+01:00',
/* author */ (''),
/* organization */ (''),
/* preprocessor_version */ 'ST-DEVELOPER v9',
/* originating_system */ 'UGS - NX 3.0',
/* authorisation */ '');

FILE_SCHEMA (('AUTOMOTIVE_DESIGN { 1 0 10303 214 1 1 1 1 }'));
ENDSEC;

DATA;
#10=SHAPE_REPRESENTATION_RELATIONSHIP('none',
'relationship between gh1206BAj15p-none and gh1206BAj15p-none',#22,#11);
#11=ADVANCED_BREP_SHAPE_REPRESENTATION('gh1206BAj15p-none',(#32),#359);
#12=SHAPE_DEFINITION_REPRESENTATION(#13,#22);
#13=PRODUCT_DEFINITION_SHAPE('','',#14);
#14=PRODUCT_DEFINITION(' ','',#16,#15);
#15=PRODUCT_DEFINITION_CONTEXT('part definition',#21,'design');
#16=PRODUCT_DEFINITION_FORMATION_WITH_SPECIFIED_SOURCE(' ',' ',#18,.NOT_KNOWN.);
#17=PRODUCT_RELATED_PRODUCT_CATEGORY('part','',(#18));
#18=PRODUCT('gh1206BAj15p','gh1206BAj15p',' ',(#19));
#19=PRODUCT_CONTEXT(' ',#21,'mechanical');
#20=APPLICATION_PROTOCOL_DEFINITION('international standard',
'automotive_design',2001,#21);
#21=APPLICATION_CONTEXT(
'core data for automotive mechanical design processes');
#22=SHAPE_REPRESENTATION('gh1206BAj15p-none',(#232),#359);
#23=PRESENTATION_LAYER_ASSIGNMENT('1','Layer 1',(#32));
#24=STYLED_ITEM('',(#25),#32);
#25=PRESENTATION_STYLE_ASSIGNMENT((#26));
#26=SURFACE_STYLE_USAGE(.BOTH.,#27);
#27=SURFACE_SIDE_STYLE('',(#28));
#28=SURFACE_STYLE_FILL_AREA(#29);
#29=FILL_AREA_STYLE('',(#30));
#30=FILL_AREA_STYLE_COLOUR('',#31);
#31=COLOUR_RGB('130 (Dark Gray)',0.4,0.4,0.4);
#32=MANIFOLD_SOLID_BREP('',#33);
#33=CLOSED_SHELL('',(#35,#36,#37,#38,#39,#40,#41,#42,#43,#44,#45,#46));
#34=CYLINDRICAL_SURFACE('',#241,0.625);
#35=ADVANCED_FACE('',(#117,#58),#47,.T.);
#36=ADVANCED_FACE('',(#59),#48,.T.);
#37=ADVANCED_FACE('',(#60),#49,.T.);
#38=ADVANCED_FACE('',(#61),#50,.T.);
#39=ADVANCED_FACE('',(#62),#51,.T.);
#40=ADVANCED_FACE('',(#63),#52,.F.);
#41=ADVANCED_FACE('',(#118,#119),#34,.F.);
#42=ADVANCED_FACE('',(#64),#53,.T.);
#43=ADVANCED_FACE('',(#65),#54,.T.);
#44=ADVANCED_FACE('',(#66),#55,.T.);
#45=ADVANCED_FACE('',(#67),#56,.T.);
#46=ADVANCED_FACE('',(#68),#57,.T.);
#47=PLANE('',#234);
#48=PLANE('',#235);
#49=PLANE('',#236);
#50=PLANE('',#237);
#51=PLANE('',#238);
#52=PLANE('',#240);
#53=PLANE('',#242);
#54=PLANE('',#243);
#55=PLANE('',#244);
#56=PLANE('',#245);
#57=PLANE('',#246);
#58=FACE_OUTER_BOUND('',#121,.T.);
#59=FACE_OUTER_BOUND('',#122,.T.);
#60=FACE_OUTER_BOUND('',#123,.T.);
#61=FACE_OUTER_BOUND('',#124,.T.);
#62=FACE_OUTER_BOUND('',#125,.T.);
#63=FACE_OUTER_BOUND('',#126,.T.);
#64=FACE_OUTER_BOUND('',#129,.T.);
#65=FACE_OUTER_BOUND('',#130,.T.);
#66=FACE_OUTER_BOUND('',#131,.T.);
#67=FACE_OUTER_BOUND('',#132,.T.);
#68=FACE_OUTER_BOUND('',#133,.T.);
#69=LINE('',#304,#93);
#70=LINE('',#307,#94);
#71=LINE('',#309,#95);
#72=LINE('',#311,#96);
#73=LINE('',#313,#97);
#74=LINE('',#315,#98);
#75=LINE('',#317,#99);
#76=LINE('',#319,#100);
#77=LINE('',#321,#101);
#78=LINE('',#323,#102);
#79=LINE('',#325,#103);
#80=LINE('',#327,#104);
#81=LINE('',#329,#105);
#82=LINE('',#331,#106);
#83=LINE('',#333,#107);
#84=LINE('',#335,#108);
#85=LINE('',#337,#109);
#86=LINE('',#339,#110);
#87=LINE('',#341,#111);
#88=LINE('',#343,#112);
#89=LINE('',#349,#113);
#90=LINE('',#351,#114);
#91=LINE('',#353,#115);
#92=LINE('',#355,#116);
#93=VECTOR('',#251,1.);
#94=VECTOR('',#252,1.);
#95=VECTOR('',#253,1.);
#96=VECTOR('',#254,1.);
#97=VECTOR('',#257,1.);
#98=VECTOR('',#258,1.);
#99=VECTOR('',#259,1.);
#100=VECTOR('',#262,1.);
#101=VECTOR('',#263,1.);
#102=VECTOR('',#264,1.);
#103=VECTOR('',#265,1.);
#104=VECTOR('',#266,1.);
#105=VECTOR('',#267,1.);
#106=VECTOR('',#270,1.);
#107=VECTOR('',#271,1.);
#108=VECTOR('',#274,1.);
#109=VECTOR('',#275,1.);
#110=VECTOR('',#276,1.);
#111=VECTOR('',#277,1.);
#112=VECTOR('',#278,1.);
#113=VECTOR('',#287,1.);
#114=VECTOR('',#290,1.);
#115=VECTOR('',#293,1.);
#116=VECTOR('',#296,1.);
#117=FACE_BOUND('',#120,.T.);
#118=FACE_BOUND('',#127,.T.);
#119=FACE_BOUND('',#128,.T.);
#120=EDGE_LOOP('',(#134));
#121=EDGE_LOOP('',(#135,#136,#137,#138));
#122=EDGE_LOOP('',(#139,#140,#141,#142));
#123=EDGE_LOOP('',(#143,#144,#145,#146,#147,#148,#149,#150));
#124=EDGE_LOOP('',(#151,#152,#153,#154));
#125=EDGE_LOOP('',(#155,#156,#157,#158,#159,#160,#161,#162));
#126=EDGE_LOOP('',(#163));
#127=EDGE_LOOP('',(#164));
#128=EDGE_LOOP('',(#165));
#129=EDGE_LOOP('',(#166,#167,#168,#169));
#130=EDGE_LOOP('',(#170,#171,#172,#173));
#131=EDGE_LOOP('',(#174,#175,#176,#177));
#132=EDGE_LOOP('',(#178,#179,#180,#181));
#133=EDGE_LOOP('',(#182,#183,#184,#185));
#134=ORIENTED_EDGE('',*,*,#204,.T.);
#135=ORIENTED_EDGE('',*,*,#205,.F.);
#136=ORIENTED_EDGE('',*,*,#206,.F.);
#137=ORIENTED_EDGE('',*,*,#207,.F.);
#138=ORIENTED_EDGE('',*,*,#208,.F.);
#139=ORIENTED_EDGE('',*,*,#209,.T.);
#140=ORIENTED_EDGE('',*,*,#205,.T.);
#141=ORIENTED_EDGE('',*,*,#210,.F.);
#142=ORIENTED_EDGE('',*,*,#211,.T.);
#143=ORIENTED_EDGE('',*,*,#210,.T.);
#144=ORIENTED_EDGE('',*,*,#208,.T.);
#145=ORIENTED_EDGE('',*,*,#212,.F.);
#146=ORIENTED_EDGE('',*,*,#213,.T.);
#147=ORIENTED_EDGE('',*,*,#214,.F.);
#148=ORIENTED_EDGE('',*,*,#215,.T.);
#149=ORIENTED_EDGE('',*,*,#216,.T.);
#150=ORIENTED_EDGE('',*,*,#217,.T.);
#151=ORIENTED_EDGE('',*,*,#212,.T.);
#152=ORIENTED_EDGE('',*,*,#207,.T.);
#153=ORIENTED_EDGE('',*,*,#218,.F.);
#154=ORIENTED_EDGE('',*,*,#219,.T.);
#155=ORIENTED_EDGE('',*,*,#209,.F.);
#156=ORIENTED_EDGE('',*,*,#220,.T.);
#157=ORIENTED_EDGE('',*,*,#221,.F.);
#158=ORIENTED_EDGE('',*,*,#222,.T.);
#159=ORIENTED_EDGE('',*,*,#223,.T.);
#160=ORIENTED_EDGE('',*,*,#224,.T.);
#161=ORIENTED_EDGE('',*,*,#218,.T.);
#162=ORIENTED_EDGE('',*,*,#206,.T.);
#163=ORIENTED_EDGE('',*,*,#225,.F.);
#164=ORIENTED_EDGE('',*,*,#225,.T.);
#165=ORIENTED_EDGE('',*,*,#204,.F.);
#166=ORIENTED_EDGE('',*,*,#211,.F.);
#167=ORIENTED_EDGE('',*,*,#217,.F.);
#168=ORIENTED_EDGE('',*,*,#226,.F.);
#169=ORIENTED_EDGE('',*,*,#220,.F.);
#170=ORIENTED_EDGE('',*,*,#219,.F.);
#171=ORIENTED_EDGE('',*,*,#224,.F.);
#172=ORIENTED_EDGE('',*,*,#227,.F.);
#173=ORIENTED_EDGE('',*,*,#213,.F.);
#174=ORIENTED_EDGE('',*,*,#221,.T.);
#175=ORIENTED_EDGE('',*,*,#226,.T.);
#176=ORIENTED_EDGE('',*,*,#216,.F.);
#177=ORIENTED_EDGE('',*,*,#228,.T.);
#178=ORIENTED_EDGE('',*,*,#214,.T.);
#179=ORIENTED_EDGE('',*,*,#227,.T.);
#180=ORIENTED_EDGE('',*,*,#223,.F.);
#181=ORIENTED_EDGE('',*,*,#229,.T.);
#182=ORIENTED_EDGE('',*,*,#222,.F.);
#183=ORIENTED_EDGE('',*,*,#228,.F.);
#184=ORIENTED_EDGE('',*,*,#215,.F.);
#185=ORIENTED_EDGE('',*,*,#229,.F.);
#186=VERTEX_POINT('',#303);
#187=VERTEX_POINT('',#305);
#188=VERTEX_POINT('',#306);
#189=VERTEX_POINT('',#308);
#190=VERTEX_POINT('',#310);
#191=VERTEX_POINT('',#314);
#192=VERTEX_POINT('',#316);
#193=VERTEX_POINT('',#320);
#194=VERTEX_POINT('',#322);
#195=VERTEX_POINT('',#324);
#196=VERTEX_POINT('',#326);
#197=VERTEX_POINT('',#328);
#198=VERTEX_POINT('',#332);
#199=VERTEX_POINT('',#336);
#200=VERTEX_POINT('',#338);
#201=VERTEX_POINT('',#340);
#202=VERTEX_POINT('',#342);
#203=VERTEX_POINT('',#346);
#204=EDGE_CURVE('',#186,#186,#230,.T.);
#205=EDGE_CURVE('',#187,#188,#69,.T.);
#206=EDGE_CURVE('',#189,#187,#70,.T.);
#207=EDGE_CURVE('',#190,#189,#71,.T.);
#208=EDGE_CURVE('',#188,#190,#72,.T.);
#209=EDGE_CURVE('',#191,#187,#73,.T.);
#210=EDGE_CURVE('',#192,#188,#74,.T.);
#211=EDGE_CURVE('',#192,#191,#75,.T.);
#212=EDGE_CURVE('',#193,#190,#76,.T.);
#213=EDGE_CURVE('',#193,#194,#77,.T.);
#214=EDGE_CURVE('',#195,#194,#78,.T.);
#215=EDGE_CURVE('',#195,#196,#79,.T.);
#216=EDGE_CURVE('',#196,#197,#80,.T.);
#217=EDGE_CURVE('',#197,#192,#81,.T.);
#218=EDGE_CURVE('',#198,#189,#82,.T.);
#219=EDGE_CURVE('',#198,#193,#83,.T.);
#220=EDGE_CURVE('',#191,#199,#84,.T.);
#221=EDGE_CURVE('',#200,#199,#85,.T.);
#222=EDGE_CURVE('',#200,#201,#86,.T.);
#223=EDGE_CURVE('',#201,#202,#87,.T.);
#224=EDGE_CURVE('',#202,#198,#88,.T.);
#225=EDGE_CURVE('',#203,#203,#231,.T.);
#226=EDGE_CURVE('',#199,#197,#89,.T.);
#227=EDGE_CURVE('',#194,#202,#90,.T.);
#228=EDGE_CURVE('',#196,#200,#91,.T.);
#229=EDGE_CURVE('',#201,#195,#92,.T.);
#230=CIRCLE('',#233,0.625);
#231=CIRCLE('',#239,0.625);
#232=AXIS2_PLACEMENT_3D('',#301,#247,#248);
#233=AXIS2_PLACEMENT_3D('',#302,#249,#250);
#234=AXIS2_PLACEMENT_3D('',#312,#255,#256);
#235=AXIS2_PLACEMENT_3D('',#318,#260,#261);
#236=AXIS2_PLACEMENT_3D('',#330,#268,#269);
#237=AXIS2_PLACEMENT_3D('',#334,#272,#273);
#238=AXIS2_PLACEMENT_3D('',#344,#279,#280);
#239=AXIS2_PLACEMENT_3D('',#345,#281,#282);
#240=AXIS2_PLACEMENT_3D('',#347,#283,#284);
#241=AXIS2_PLACEMENT_3D('',#348,#285,#286);
#242=AXIS2_PLACEMENT_3D('',#350,#288,#289);
#243=AXIS2_PLACEMENT_3D('',#352,#291,#292);
#244=AXIS2_PLACEMENT_3D('',#354,#294,#295);
#245=AXIS2_PLACEMENT_3D('',#356,#297,#298);
#246=AXIS2_PLACEMENT_3D('',#357,#299,#300);
#247=DIRECTION('',(0.,0.,1.));
#248=DIRECTION('',(1.,0.,0.));
#249=DIRECTION('',(0.,0.,-1.));
#250=DIRECTION('',(0.,0.999999999999999,0.));
#251=DIRECTION('',(0.,1.,0.));
#252=DIRECTION('',(-1.,0.,0.));
#253=DIRECTION('',(0.,-1.,0.));
#254=DIRECTION('',(1.,0.,0.));
#255=DIRECTION('',(0.,0.,1.));
#256=DIRECTION('',(0.,-1.,0.));
#257=DIRECTION('',(0.,0.,1.));
#258=DIRECTION('',(0.,0.,1.));
#259=DIRECTION('',(0.,-1.,0.));
#260=DIRECTION('',(-1.,0.,0.));
#261=DIRECTION('',(0.,0.,-1.));
#262=DIRECTION('',(0.,0.,1.));
#263=DIRECTION('',(1.,0.,0.));
#264=DIRECTION('',(0.,0.,1.));
#265=DIRECTION('',(-1.,0.,0.));
#266=DIRECTION('',(0.,0.,1.));
#267=DIRECTION('',(1.,0.,0.));
#268=DIRECTION('',(0.,1.,0.));
#269=DIRECTION('',(0.,0.,1.));
#270=DIRECTION('',(0.,0.,1.));
#271=DIRECTION('',(0.,1.,0.));
#272=DIRECTION('',(1.,0.,0.));
#273=DIRECTION('',(0.,0.,1.));
#274=DIRECTION('',(-1.,0.,0.));
#275=DIRECTION('',(0.,0.,1.));
#276=DIRECTION('',(1.,0.,0.));
#277=DIRECTION('',(0.,0.,1.));
#278=DIRECTION('',(-1.,0.,0.));
#279=DIRECTION('',(0.,-1.,0.));
#280=DIRECTION('',(0.,0.,-1.));
#281=DIRECTION('',(0.,0.,-1.));
#282=DIRECTION('',(0.,0.999999999999999,0.));
#283=DIRECTION('',(0.,0.,-1.));
#284=DIRECTION('',(0.,1.,0.));
#285=DIRECTION('',(0.,0.,-1.));
#286=DIRECTION('',(0.,0.999999999999999,0.));
#287=DIRECTION('',(0.,1.,0.));
#288=DIRECTION('',(0.,0.,1.));
#289=DIRECTION('',(0.,-1.,0.));
#290=DIRECTION('',(0.,-1.,0.));
#291=DIRECTION('',(0.,0.,1.));
#292=DIRECTION('',(0.,-1.,0.));
#293=DIRECTION('',(0.,-1.,0.));
#294=DIRECTION('',(-1.,0.,0.));
#295=DIRECTION('',(0.,0.,-1.));
#296=DIRECTION('',(0.,1.,0.));
#297=DIRECTION('',(1.,0.,0.));
#298=DIRECTION('',(0.,0.,1.));
#299=DIRECTION('',(0.,0.,-1.));
#300=DIRECTION('',(0.,1.,0.));
#301=CARTESIAN_POINT('',(0.,0.,0.));
#302=CARTESIAN_POINT('',(42.5,-4.89999999999999,1.3));
#303=CARTESIAN_POINT('',(42.5,-4.27499999999999,1.3));
#304=CARTESIAN_POINT('',(37.5,-4.89999999999999,1.3));
#305=CARTESIAN_POINT('',(37.5,-6.74999999999999,1.3));
#306=CARTESIAN_POINT('',(37.5,-3.04999999999999,1.3));
#307=CARTESIAN_POINT('',(42.5,-6.74999999999999,1.3));
#308=CARTESIAN_POINT('',(47.5,-6.74999999999999,1.3));
#309=CARTESIAN_POINT('',(47.5,-4.89999999999999,1.3));
#310=CARTESIAN_POINT('',(47.5,-3.04999999999999,1.3));
#311=CARTESIAN_POINT('',(42.5,-3.04999999999999,1.3));
#312=CARTESIAN_POINT('',(42.5,-4.89999999999999,1.3));
#313=CARTESIAN_POINT('',(37.5,-6.74999999999999,0.05));
#314=CARTESIAN_POINT('',(37.5,-6.74999999999999,-0.025));
#315=CARTESIAN_POINT('',(37.5,-3.04999999999999,0.05));
#316=CARTESIAN_POINT('',(37.5,-3.04999999999999,-0.025));
#317=CARTESIAN_POINT('',(37.5,-4.89999999999999,-0.025));
#318=CARTESIAN_POINT('',(37.5,-4.89999999999999,0.05));
#319=CARTESIAN_POINT('',(47.5,-3.04999999999999,0.05));
#320=CARTESIAN_POINT('',(47.5,-3.04999999999999,-0.025));
#321=CARTESIAN_POINT('',(42.5,-3.04999999999999,-0.025));
#322=CARTESIAN_POINT('',(50.,-3.04999999999999,-0.025));
#323=CARTESIAN_POINT('',(50.,-3.04999999999999,-0.125));
#324=CARTESIAN_POINT('',(50.,-3.04999999999999,-0.125));
#325=CARTESIAN_POINT('',(42.5,-3.04999999999999,-0.125));
#326=CARTESIAN_POINT('',(35.,-3.04999999999999,-0.125));
#327=CARTESIAN_POINT('',(35.,-3.04999999999999,-0.125));
#328=CARTESIAN_POINT('',(35.,-3.04999999999999,-0.025));
#329=CARTESIAN_POINT('',(42.5,-3.04999999999999,-0.025));
#330=CARTESIAN_POINT('',(42.5,-3.04999999999999,0.05));
#331=CARTESIAN_POINT('',(47.5,-6.74999999999999,0.05));
#332=CARTESIAN_POINT('',(47.5,-6.74999999999999,-0.025));
#333=CARTESIAN_POINT('',(47.5,-4.89999999999999,-0.025));
#334=CARTESIAN_POINT('',(47.5,-4.89999999999999,0.05));
#335=CARTESIAN_POINT('',(42.5,-6.74999999999999,-0.025));
#336=CARTESIAN_POINT('',(35.,-6.74999999999999,-0.025));
#337=CARTESIAN_POINT('',(35.,-6.74999999999999,-0.125));
#338=CARTESIAN_POINT('',(35.,-6.74999999999999,-0.125));
#339=CARTESIAN_POINT('',(42.5,-6.74999999999999,-0.125));
#340=CARTESIAN_POINT('',(50.,-6.74999999999999,-0.125));
#341=CARTESIAN_POINT('',(50.,-6.74999999999999,-0.125));
#342=CARTESIAN_POINT('',(50.,-6.74999999999999,-0.025));
#343=CARTESIAN_POINT('',(42.5,-6.74999999999999,-0.025));
#344=CARTESIAN_POINT('',(42.5,-6.74999999999999,0.05));
#345=CARTESIAN_POINT('',(42.5,-4.89999999999999,1.1));
#346=CARTESIAN_POINT('',(42.5,-4.27499999999999,1.1));
#347=CARTESIAN_POINT('',(42.5,-4.89999999999999,1.1));
#348=CARTESIAN_POINT('',(42.5,-4.89999999999999,1.3));
#349=CARTESIAN_POINT('',(35.,-4.89999999999999,-0.025));
#350=CARTESIAN_POINT('',(42.5,-4.89999999999999,-0.025));
#351=CARTESIAN_POINT('',(50.,-4.89999999999999,-0.025));
#352=CARTESIAN_POINT('',(42.5,-4.89999999999999,-0.025));
#353=CARTESIAN_POINT('',(35.,-4.89999999999999,-0.125));
#354=CARTESIAN_POINT('',(35.,-4.89999999999999,-0.125));
#355=CARTESIAN_POINT('',(50.,-4.89999999999999,-0.125));
#356=CARTESIAN_POINT('',(50.,-4.89999999999999,-0.125));
#357=CARTESIAN_POINT('',(42.5,-4.89999999999999,-0.125));
#358=MECHANICAL_DESIGN_GEOMETRIC_PRESENTATION_REPRESENTATION('',(#24),#359);
#359=(
GEOMETRIC_REPRESENTATION_CONTEXT(3)
GLOBAL_UNCERTAINTY_ASSIGNED_CONTEXT((#360))
GLOBAL_UNIT_ASSIGNED_CONTEXT((#366,#362,#361))
REPRESENTATION_CONTEXT('Q LIMIT SELECTOR_STEP214',
'TOP_LEVEL_ASSEMBLY_PART')
);
#360=UNCERTAINTY_MEASURE_WITH_UNIT(LENGTH_MEASURE(2.E-005),#366,
'DISTANCE_ACCURACY_VALUE','Maximum Tolerance applied to model');
#361=(
NAMED_UNIT(*)
SI_UNIT($,.STERADIAN.)
SOLID_ANGLE_UNIT()
);
#362=(
CONVERSION_BASED_UNIT('DEGREE',#364)
NAMED_UNIT(#363)
PLANE_ANGLE_UNIT()
);
#363=DIMENSIONAL_EXPONENTS(0.,0.,0.,0.,0.,0.,0.);
#364=PLANE_ANGLE_MEASURE_WITH_UNIT(PLANE_ANGLE_MEASURE(0.0174532925),#365);
#365=(
NAMED_UNIT(*)
PLANE_ANGLE_UNIT()
SI_UNIT($,.RADIAN.)
);
#366=(
LENGTH_UNIT()
NAMED_UNIT(*)
SI_UNIT(.MILLI.,.METRE.)
);
ENDSEC;
END-ISO-10303-21;
