ISO-10303-21;
HEADER;
/* Generated by software containing ST-Developer
 * from STEP Tools, Inc. (www.steptools.com) 
 */
/* OPTION: using custom schema-name function */

FILE_DESCRIPTION(
/* description */ (''),
/* implementation_level */ '2;1');

FILE_NAME(
/* name */ 'LA_9517_4842_01_A.stp',
/* time_stamp */ '2010-09-06T11:16:21+01:00',
/* author */ (''),
/* organization */ (''),
/* preprocessor_version */ 'ST-DEVELOPER v11',
/* originating_system */ 'SIEMENS UGS NX 6.0',
/* authorisation */ '');

FILE_SCHEMA (('AUTOMOTIVE_DESIGN { 1 0 10303 214 1 1 1 1 }'));
ENDSEC;

DATA;
#10=SHAPE_DEFINITION_REPRESENTATION(#11,#20);
#11=PRODUCT_DEFINITION_SHAPE('','',#12);
#12=PRODUCT_DEFINITION(' ','',#14,#13);
#13=PRODUCT_DEFINITION_CONTEXT('part definition',#19,'design');
#14=PRODUCT_DEFINITION_FORMATION_WITH_SPECIFIED_SOURCE(' ',' ',#16,.NOT_KNOWN.);
#15=PRODUCT_RELATED_PRODUCT_CATEGORY('part','',(#16));
#16=PRODUCT('LA-9517-4842-01_A','LA-9517-4842-01_A',' ',(#17));
#17=PRODUCT_CONTEXT(' ',#19,'mechanical');
#18=APPLICATION_PROTOCOL_DEFINITION('international standard',
'automotive_design',2001,#19);
#19=APPLICATION_CONTEXT(
'core data for automotive mechanical design processes');
#20=SHAPE_REPRESENTATION('LA-9517-4842-01_A-None',(#330,#27,#21),#535);
#21=GEOMETRIC_CURVE_SET('None',(#309,#310,#311,#312,#313,#314,#315));
#22=SURFACE_STYLE_USAGE(.BOTH.,#23);
#23=SURFACE_SIDE_STYLE('',(#24));
#24=SURFACE_STYLE_FILL_AREA(#25);
#25=FILL_AREA_STYLE('',(#26));
#26=FILL_AREA_STYLE_COLOUR('',#301);
#27=MANIFOLD_SOLID_BREP('',#28);
#28=CLOSED_SHELL('',(#48,#49,#50,#51,#52,#53,#54,#55,#56,#57,#58,#59,#60,
#61,#62,#63,#64,#65));
#29=VERTEX_LOOP('',#227);
#30=VERTEX_LOOP('',#228);
#31=VERTEX_LOOP('',#229);
#32=VERTEX_LOOP('',#230);
#33=CONICAL_SURFACE('',#363,26.075,44.9999999999998);
#34=CONICAL_SURFACE('',#364,26.075,44.9999999999998);
#35=CONICAL_SURFACE('',#365,0.,60.);
#36=CONICAL_SURFACE('',#366,0.,60.);
#37=CONICAL_SURFACE('',#367,0.,60.);
#38=CONICAL_SURFACE('',#368,0.,60.);
#39=CONICAL_SURFACE('',#369,13.,45.);
#40=CONICAL_SURFACE('',#370,13.5,45.);
#41=CYLINDRICAL_SURFACE('',#340,26.075);
#42=CYLINDRICAL_SURFACE('',#354,13.);
#43=CYLINDRICAL_SURFACE('',#355,3.);
#44=CYLINDRICAL_SURFACE('',#356,3.);
#45=CYLINDRICAL_SURFACE('',#357,3.);
#46=CYLINDRICAL_SURFACE('',#358,3.);
#47=CYLINDRICAL_SURFACE('',#360,25.);
#48=ADVANCED_FACE('',(#69,#70,#71,#72,#73,#74),#66,.T.);
#49=ADVANCED_FACE('',(#75,#76),#41,.T.);
#50=ADVANCED_FACE('',(#77,#78,#79,#80,#81,#82,#83,#84,#85,#86),#67,.T.);
#51=ADVANCED_FACE('',(#87,#88),#42,.F.);
#52=ADVANCED_FACE('',(#89,#90),#43,.F.);
#53=ADVANCED_FACE('',(#91,#92),#44,.F.);
#54=ADVANCED_FACE('',(#93,#94),#45,.F.);
#55=ADVANCED_FACE('',(#95,#96),#46,.F.);
#56=ADVANCED_FACE('',(#97,#98),#47,.T.);
#57=ADVANCED_FACE('',(#99,#100),#68,.T.);
#58=ADVANCED_FACE('',(#101,#102),#33,.T.);
#59=ADVANCED_FACE('',(#103,#104),#34,.T.);
#60=ADVANCED_FACE('',(#105,#106),#35,.F.);
#61=ADVANCED_FACE('',(#107,#108),#36,.F.);
#62=ADVANCED_FACE('',(#109,#110),#37,.F.);
#63=ADVANCED_FACE('',(#111,#112),#38,.F.);
#64=ADVANCED_FACE('',(#113,#114),#39,.F.);
#65=ADVANCED_FACE('',(#115,#116),#40,.F.);
#66=PLANE('',#337);
#67=PLANE('',#351);
#68=PLANE('',#362);
#69=FACE_BOUND('',#117,.T.);
#70=FACE_BOUND('',#118,.T.);
#71=FACE_BOUND('',#119,.T.);
#72=FACE_BOUND('',#120,.T.);
#73=FACE_BOUND('',#121,.T.);
#74=FACE_BOUND('',#122,.T.);
#75=FACE_BOUND('',#123,.T.);
#76=FACE_BOUND('',#124,.T.);
#77=FACE_BOUND('',#125,.T.);
#78=FACE_BOUND('',#126,.T.);
#79=FACE_BOUND('',#127,.T.);
#80=FACE_BOUND('',#128,.T.);
#81=FACE_BOUND('',#129,.T.);
#82=FACE_BOUND('',#130,.T.);
#83=FACE_BOUND('',#131,.T.);
#84=FACE_BOUND('',#132,.T.);
#85=FACE_BOUND('',#133,.T.);
#86=FACE_BOUND('',#134,.T.);
#87=FACE_BOUND('',#135,.T.);
#88=FACE_BOUND('',#136,.T.);
#89=FACE_BOUND('',#137,.T.);
#90=FACE_BOUND('',#138,.T.);
#91=FACE_BOUND('',#139,.T.);
#92=FACE_BOUND('',#140,.T.);
#93=FACE_BOUND('',#141,.T.);
#94=FACE_BOUND('',#142,.T.);
#95=FACE_BOUND('',#143,.T.);
#96=FACE_BOUND('',#144,.T.);
#97=FACE_BOUND('',#145,.T.);
#98=FACE_BOUND('',#146,.T.);
#99=FACE_BOUND('',#147,.T.);
#100=FACE_BOUND('',#148,.T.);
#101=FACE_BOUND('',#149,.T.);
#102=FACE_BOUND('',#150,.T.);
#103=FACE_BOUND('',#151,.T.);
#104=FACE_BOUND('',#152,.T.);
#105=FACE_BOUND('',#153,.T.);
#106=FACE_BOUND('',#29,.T.);
#107=FACE_BOUND('',#154,.T.);
#108=FACE_BOUND('',#30,.T.);
#109=FACE_BOUND('',#155,.T.);
#110=FACE_BOUND('',#31,.T.);
#111=FACE_BOUND('',#156,.T.);
#112=FACE_BOUND('',#32,.T.);
#113=FACE_BOUND('',#157,.T.);
#114=FACE_BOUND('',#158,.T.);
#115=FACE_BOUND('',#159,.T.);
#116=FACE_BOUND('',#160,.T.);
#117=EDGE_LOOP('',(#161));
#118=EDGE_LOOP('',(#162));
#119=EDGE_LOOP('',(#163));
#120=EDGE_LOOP('',(#164));
#121=EDGE_LOOP('',(#165));
#122=EDGE_LOOP('',(#166));
#123=EDGE_LOOP('',(#167));
#124=EDGE_LOOP('',(#168));
#125=EDGE_LOOP('',(#169));
#126=EDGE_LOOP('',(#170));
#127=EDGE_LOOP('',(#171));
#128=EDGE_LOOP('',(#172));
#129=EDGE_LOOP('',(#173));
#130=EDGE_LOOP('',(#174));
#131=EDGE_LOOP('',(#175));
#132=EDGE_LOOP('',(#176));
#133=EDGE_LOOP('',(#177));
#134=EDGE_LOOP('',(#178));
#135=EDGE_LOOP('',(#179));
#136=EDGE_LOOP('',(#180));
#137=EDGE_LOOP('',(#181));
#138=EDGE_LOOP('',(#182));
#139=EDGE_LOOP('',(#183));
#140=EDGE_LOOP('',(#184));
#141=EDGE_LOOP('',(#185));
#142=EDGE_LOOP('',(#186));
#143=EDGE_LOOP('',(#187));
#144=EDGE_LOOP('',(#188));
#145=EDGE_LOOP('',(#189));
#146=EDGE_LOOP('',(#190));
#147=EDGE_LOOP('',(#191));
#148=EDGE_LOOP('',(#192));
#149=EDGE_LOOP('',(#193));
#150=EDGE_LOOP('',(#194));
#151=EDGE_LOOP('',(#195));
#152=EDGE_LOOP('',(#196));
#153=EDGE_LOOP('',(#197));
#154=EDGE_LOOP('',(#198));
#155=EDGE_LOOP('',(#199));
#156=EDGE_LOOP('',(#200));
#157=EDGE_LOOP('',(#201));
#158=EDGE_LOOP('',(#202));
#159=EDGE_LOOP('',(#203));
#160=EDGE_LOOP('',(#204));
#161=ORIENTED_EDGE('',*,*,#231,.T.);
#162=ORIENTED_EDGE('',*,*,#232,.F.);
#163=ORIENTED_EDGE('',*,*,#233,.F.);
#164=ORIENTED_EDGE('',*,*,#234,.F.);
#165=ORIENTED_EDGE('',*,*,#235,.F.);
#166=ORIENTED_EDGE('',*,*,#236,.T.);
#167=ORIENTED_EDGE('',*,*,#237,.T.);
#168=ORIENTED_EDGE('',*,*,#238,.T.);
#169=ORIENTED_EDGE('',*,*,#239,.T.);
#170=ORIENTED_EDGE('',*,*,#240,.T.);
#171=ORIENTED_EDGE('',*,*,#241,.T.);
#172=ORIENTED_EDGE('',*,*,#242,.T.);
#173=ORIENTED_EDGE('',*,*,#243,.T.);
#174=ORIENTED_EDGE('',*,*,#244,.T.);
#175=ORIENTED_EDGE('',*,*,#245,.T.);
#176=ORIENTED_EDGE('',*,*,#246,.T.);
#177=ORIENTED_EDGE('',*,*,#247,.T.);
#178=ORIENTED_EDGE('',*,*,#248,.T.);
#179=ORIENTED_EDGE('',*,*,#249,.T.);
#180=ORIENTED_EDGE('',*,*,#250,.T.);
#181=ORIENTED_EDGE('',*,*,#232,.T.);
#182=ORIENTED_EDGE('',*,*,#248,.F.);
#183=ORIENTED_EDGE('',*,*,#233,.T.);
#184=ORIENTED_EDGE('',*,*,#247,.F.);
#185=ORIENTED_EDGE('',*,*,#234,.T.);
#186=ORIENTED_EDGE('',*,*,#246,.F.);
#187=ORIENTED_EDGE('',*,*,#235,.T.);
#188=ORIENTED_EDGE('',*,*,#245,.F.);
#189=ORIENTED_EDGE('',*,*,#251,.T.);
#190=ORIENTED_EDGE('',*,*,#236,.F.);
#191=ORIENTED_EDGE('',*,*,#252,.T.);
#192=ORIENTED_EDGE('',*,*,#251,.F.);
#193=ORIENTED_EDGE('',*,*,#252,.F.);
#194=ORIENTED_EDGE('',*,*,#238,.F.);
#195=ORIENTED_EDGE('',*,*,#244,.F.);
#196=ORIENTED_EDGE('',*,*,#237,.F.);
#197=ORIENTED_EDGE('',*,*,#243,.F.);
#198=ORIENTED_EDGE('',*,*,#242,.F.);
#199=ORIENTED_EDGE('',*,*,#241,.F.);
#200=ORIENTED_EDGE('',*,*,#240,.F.);
#201=ORIENTED_EDGE('',*,*,#231,.F.);
#202=ORIENTED_EDGE('',*,*,#249,.F.);
#203=ORIENTED_EDGE('',*,*,#250,.F.);
#204=ORIENTED_EDGE('',*,*,#239,.F.);
#205=VERTEX_POINT('',#469);
#206=VERTEX_POINT('',#471);
#207=VERTEX_POINT('',#473);
#208=VERTEX_POINT('',#475);
#209=VERTEX_POINT('',#477);
#210=VERTEX_POINT('',#479);
#211=VERTEX_POINT('',#482);
#212=VERTEX_POINT('',#484);
#213=VERTEX_POINT('',#487);
#214=VERTEX_POINT('',#489);
#215=VERTEX_POINT('',#491);
#216=VERTEX_POINT('',#493);
#217=VERTEX_POINT('',#495);
#218=VERTEX_POINT('',#497);
#219=VERTEX_POINT('',#499);
#220=VERTEX_POINT('',#501);
#221=VERTEX_POINT('',#503);
#222=VERTEX_POINT('',#505);
#223=VERTEX_POINT('',#508);
#224=VERTEX_POINT('',#510);
#225=VERTEX_POINT('',#517);
#226=VERTEX_POINT('',#520);
#227=VERTEX_POINT('',#524);
#228=VERTEX_POINT('',#526);
#229=VERTEX_POINT('',#528);
#230=VERTEX_POINT('',#530);
#231=EDGE_CURVE('',#205,#205,#253,.T.);
#232=EDGE_CURVE('',#206,#206,#254,.T.);
#233=EDGE_CURVE('',#207,#207,#255,.T.);
#234=EDGE_CURVE('',#208,#208,#256,.T.);
#235=EDGE_CURVE('',#209,#209,#257,.T.);
#236=EDGE_CURVE('',#210,#210,#258,.T.);
#237=EDGE_CURVE('',#211,#211,#259,.T.);
#238=EDGE_CURVE('',#212,#212,#260,.T.);
#239=EDGE_CURVE('',#213,#213,#261,.T.);
#240=EDGE_CURVE('',#214,#214,#262,.T.);
#241=EDGE_CURVE('',#215,#215,#263,.T.);
#242=EDGE_CURVE('',#216,#216,#264,.T.);
#243=EDGE_CURVE('',#217,#217,#265,.T.);
#244=EDGE_CURVE('',#218,#218,#266,.T.);
#245=EDGE_CURVE('',#219,#219,#267,.T.);
#246=EDGE_CURVE('',#220,#220,#268,.T.);
#247=EDGE_CURVE('',#221,#221,#269,.T.);
#248=EDGE_CURVE('',#222,#222,#270,.T.);
#249=EDGE_CURVE('',#223,#223,#271,.T.);
#250=EDGE_CURVE('',#224,#224,#272,.T.);
#251=EDGE_CURVE('',#225,#225,#273,.T.);
#252=EDGE_CURVE('',#226,#226,#274,.T.);
#253=CIRCLE('',#331,13.5);
#254=CIRCLE('',#332,3.);
#255=CIRCLE('',#333,3.);
#256=CIRCLE('',#334,3.);
#257=CIRCLE('',#335,3.);
#258=CIRCLE('',#336,25.);
#259=CIRCLE('',#338,26.075);
#260=CIRCLE('',#339,26.075);
#261=CIRCLE('',#341,13.5);
#262=CIRCLE('',#342,1.);
#263=CIRCLE('',#343,1.);
#264=CIRCLE('',#344,1.);
#265=CIRCLE('',#345,1.);
#266=CIRCLE('',#346,25.875);
#267=CIRCLE('',#347,3.);
#268=CIRCLE('',#348,3.);
#269=CIRCLE('',#349,3.);
#270=CIRCLE('',#350,3.);
#271=CIRCLE('',#352,13.);
#272=CIRCLE('',#353,13.);
#273=CIRCLE('',#359,25.);
#274=CIRCLE('',#361,25.875);
#275=INVISIBILITY((#276));
#276=PRESENTATION_LAYER_ASSIGNMENT('220','Layer 220',(#309,#310,#311,#312,
#313,#314,#315));
#277=PRESENTATION_LAYER_ASSIGNMENT('1','Layer 1',(#27));
#278=STYLED_ITEM('',(#286),#309);
#279=STYLED_ITEM('',(#287),#310);
#280=STYLED_ITEM('',(#288),#311);
#281=STYLED_ITEM('',(#289),#312);
#282=STYLED_ITEM('',(#290),#313);
#283=STYLED_ITEM('',(#291),#314);
#284=STYLED_ITEM('',(#292),#315);
#285=STYLED_ITEM('',(#293),#27);
#286=PRESENTATION_STYLE_ASSIGNMENT((#294));
#287=PRESENTATION_STYLE_ASSIGNMENT((#295));
#288=PRESENTATION_STYLE_ASSIGNMENT((#296));
#289=PRESENTATION_STYLE_ASSIGNMENT((#297));
#290=PRESENTATION_STYLE_ASSIGNMENT((#298));
#291=PRESENTATION_STYLE_ASSIGNMENT((#299));
#292=PRESENTATION_STYLE_ASSIGNMENT((#300));
#293=PRESENTATION_STYLE_ASSIGNMENT((#22));
#294=CURVE_STYLE('',#302,POSITIVE_LENGTH_MEASURE(0.352777777777778),#301);
#295=CURVE_STYLE('',#303,POSITIVE_LENGTH_MEASURE(0.352777777777778),#301);
#296=CURVE_STYLE('',#304,POSITIVE_LENGTH_MEASURE(0.352777777777778),#301);
#297=CURVE_STYLE('',#305,POSITIVE_LENGTH_MEASURE(0.352777777777778),#301);
#298=CURVE_STYLE('',#306,POSITIVE_LENGTH_MEASURE(0.352777777777778),#301);
#299=CURVE_STYLE('',#307,POSITIVE_LENGTH_MEASURE(0.352777777777778),#301);
#300=CURVE_STYLE('',#308,POSITIVE_LENGTH_MEASURE(0.352777777777778),#301);
#301=DRAUGHTING_PRE_DEFINED_COLOUR('green');
#302=DRAUGHTING_PRE_DEFINED_CURVE_FONT('continuous');
#303=DRAUGHTING_PRE_DEFINED_CURVE_FONT('continuous');
#304=DRAUGHTING_PRE_DEFINED_CURVE_FONT('continuous');
#305=DRAUGHTING_PRE_DEFINED_CURVE_FONT('continuous');
#306=DRAUGHTING_PRE_DEFINED_CURVE_FONT('continuous');
#307=DRAUGHTING_PRE_DEFINED_CURVE_FONT('continuous');
#308=DRAUGHTING_PRE_DEFINED_CURVE_FONT('continuous');
#309=TRIMMED_CURVE('Line1',#316,(PARAMETER_VALUE(0.)),(PARAMETER_VALUE(1.)),
 .T.,.PARAMETER.);
#310=TRIMMED_CURVE('Line2',#317,(PARAMETER_VALUE(0.)),(PARAMETER_VALUE(1.)),
 .T.,.PARAMETER.);
#311=TRIMMED_CURVE('Line3',#318,(PARAMETER_VALUE(0.)),(PARAMETER_VALUE(1.)),
 .T.,.PARAMETER.);
#312=TRIMMED_CURVE('Line4',#319,(PARAMETER_VALUE(0.)),(PARAMETER_VALUE(1.)),
 .T.,.PARAMETER.);
#313=TRIMMED_CURVE('Line5',#320,(PARAMETER_VALUE(0.)),(PARAMETER_VALUE(1.)),
 .T.,.PARAMETER.);
#314=TRIMMED_CURVE('Line6',#321,(PARAMETER_VALUE(0.)),(PARAMETER_VALUE(1.)),
 .T.,.PARAMETER.);
#315=TRIMMED_CURVE('Line7',#322,(PARAMETER_VALUE(0.)),(PARAMETER_VALUE(1.)),
 .T.,.PARAMETER.);
#316=LINE('Line1',#461,#323);
#317=LINE('Line2',#462,#324);
#318=LINE('Line3',#463,#325);
#319=LINE('Line4',#464,#326);
#320=LINE('Line5',#465,#327);
#321=LINE('Line6',#466,#328);
#322=LINE('Line7',#467,#329);
#323=VECTOR('',#373,5.);
#324=VECTOR('',#374,0.249999999999998);
#325=VECTOR('',#375,5.);
#326=VECTOR('',#376,0.249999999999999);
#327=VECTOR('',#377,0.577350269189626);
#328=VECTOR('',#378,1.);
#329=VECTOR('',#379,1.15470053837925);
#330=AXIS2_PLACEMENT_3D('',#460,#371,#372);
#331=AXIS2_PLACEMENT_3D('',#468,#380,#381);
#332=AXIS2_PLACEMENT_3D('',#470,#382,#383);
#333=AXIS2_PLACEMENT_3D('',#472,#384,#385);
#334=AXIS2_PLACEMENT_3D('',#474,#386,#387);
#335=AXIS2_PLACEMENT_3D('',#476,#388,#389);
#336=AXIS2_PLACEMENT_3D('',#478,#390,#391);
#337=AXIS2_PLACEMENT_3D('',#480,#392,#393);
#338=AXIS2_PLACEMENT_3D('',#481,#394,#395);
#339=AXIS2_PLACEMENT_3D('',#483,#396,#397);
#340=AXIS2_PLACEMENT_3D('',#485,#398,#399);
#341=AXIS2_PLACEMENT_3D('',#486,#400,#401);
#342=AXIS2_PLACEMENT_3D('',#488,#402,#403);
#343=AXIS2_PLACEMENT_3D('',#490,#404,#405);
#344=AXIS2_PLACEMENT_3D('',#492,#406,#407);
#345=AXIS2_PLACEMENT_3D('',#494,#408,#409);
#346=AXIS2_PLACEMENT_3D('',#496,#410,#411);
#347=AXIS2_PLACEMENT_3D('',#498,#412,#413);
#348=AXIS2_PLACEMENT_3D('',#500,#414,#415);
#349=AXIS2_PLACEMENT_3D('',#502,#416,#417);
#350=AXIS2_PLACEMENT_3D('',#504,#418,#419);
#351=AXIS2_PLACEMENT_3D('',#506,#420,#421);
#352=AXIS2_PLACEMENT_3D('',#507,#422,#423);
#353=AXIS2_PLACEMENT_3D('',#509,#424,#425);
#354=AXIS2_PLACEMENT_3D('',#511,#426,#427);
#355=AXIS2_PLACEMENT_3D('',#512,#428,#429);
#356=AXIS2_PLACEMENT_3D('',#513,#430,#431);
#357=AXIS2_PLACEMENT_3D('',#514,#432,#433);
#358=AXIS2_PLACEMENT_3D('',#515,#434,#435);
#359=AXIS2_PLACEMENT_3D('',#516,#436,#437);
#360=AXIS2_PLACEMENT_3D('',#518,#438,#439);
#361=AXIS2_PLACEMENT_3D('',#519,#440,#441);
#362=AXIS2_PLACEMENT_3D('',#521,#442,#443);
#363=AXIS2_PLACEMENT_3D('',#522,#444,#445);
#364=AXIS2_PLACEMENT_3D('',#523,#446,#447);
#365=AXIS2_PLACEMENT_3D('',#525,#448,#449);
#366=AXIS2_PLACEMENT_3D('',#527,#450,#451);
#367=AXIS2_PLACEMENT_3D('',#529,#452,#453);
#368=AXIS2_PLACEMENT_3D('',#531,#454,#455);
#369=AXIS2_PLACEMENT_3D('',#532,#456,#457);
#370=AXIS2_PLACEMENT_3D('',#533,#458,#459);
#371=DIRECTION('',(0.,0.,1.));
#372=DIRECTION('',(1.,0.,0.));
#373=DIRECTION('',(1.,0.,-1.77635683940025E-016));
#374=DIRECTION('',(0.,0.,-1.));
#375=DIRECTION('',(-1.,0.,0.));
#376=DIRECTION('',(0.,0.,1.));
#377=DIRECTION('',(0.,0.,1.));
#378=DIRECTION('',(1.,0.,0.));
#379=DIRECTION('',(-0.866025403784438,0.,-0.5));
#380=DIRECTION('',(0.,0.,1.));
#381=DIRECTION('',(-1.,0.,0.));
#382=DIRECTION('',(0.,0.,-1.));
#383=DIRECTION('',(-1.,0.,0.));
#384=DIRECTION('',(0.,0.,-1.));
#385=DIRECTION('',(-1.,0.,0.));
#386=DIRECTION('',(0.,0.,-1.));
#387=DIRECTION('',(-1.,0.,0.));
#388=DIRECTION('',(0.,0.,-1.));
#389=DIRECTION('',(-1.,0.,0.));
#390=DIRECTION('',(0.,0.,-1.));
#391=DIRECTION('',(-1.,0.,0.));
#392=DIRECTION('',(0.,0.,-1.));
#393=DIRECTION('',(-1.,0.,0.));
#394=DIRECTION('',(0.,0.,-1.));
#395=DIRECTION('',(1.,0.,0.));
#396=DIRECTION('',(0.,0.,1.));
#397=DIRECTION('',(-1.,0.,0.));
#398=DIRECTION('',(0.,0.,1.));
#399=DIRECTION('',(1.,0.,0.));
#400=DIRECTION('',(0.,0.,-1.));
#401=DIRECTION('',(1.,0.,0.));
#402=DIRECTION('',(0.,0.,-1.));
#403=DIRECTION('',(1.83690953073357E-016,-1.,0.));
#404=DIRECTION('',(0.,0.,-1.));
#405=DIRECTION('',(1.,1.22460635382238E-016,0.));
#406=DIRECTION('',(0.,0.,-1.));
#407=DIRECTION('',(-6.12303176911188E-017,1.,0.));
#408=DIRECTION('',(0.,0.,-1.));
#409=DIRECTION('',(-1.,0.,0.));
#410=DIRECTION('',(0.,0.,1.));
#411=DIRECTION('',(1.,0.,0.));
#412=DIRECTION('',(0.,0.,-1.));
#413=DIRECTION('',(1.83690953073357E-016,1.,0.));
#414=DIRECTION('',(0.,0.,-1.));
#415=DIRECTION('',(1.,-1.22460635382238E-016,0.));
#416=DIRECTION('',(0.,0.,-1.));
#417=DIRECTION('',(-6.12303176911189E-017,-1.,0.));
#418=DIRECTION('',(0.,0.,-1.));
#419=DIRECTION('',(-1.,0.,0.));
#420=DIRECTION('',(0.,0.,1.));
#421=DIRECTION('',(1.,0.,0.));
#422=DIRECTION('',(0.,0.,-1.));
#423=DIRECTION('',(-1.,0.,0.));
#424=DIRECTION('',(0.,0.,1.));
#425=DIRECTION('',(1.,0.,0.));
#426=DIRECTION('',(0.,0.,-1.));
#427=DIRECTION('',(-1.,0.,0.));
#428=DIRECTION('',(0.,0.,-1.));
#429=DIRECTION('',(-1.,0.,0.));
#430=DIRECTION('',(0.,0.,-1.));
#431=DIRECTION('',(-6.12303176911189E-017,-1.,0.));
#432=DIRECTION('',(0.,0.,-1.));
#433=DIRECTION('',(1.,-1.22460635382238E-016,0.));
#434=DIRECTION('',(0.,0.,-1.));
#435=DIRECTION('',(1.83690953073357E-016,1.,0.));
#436=DIRECTION('',(0.,0.,-1.));
#437=DIRECTION('',(-1.,0.,0.));
#438=DIRECTION('',(0.,0.,-1.));
#439=DIRECTION('',(-1.,0.,0.));
#440=DIRECTION('',(0.,0.,-1.));
#441=DIRECTION('',(-1.,0.,0.));
#442=DIRECTION('',(0.,0.,-1.));
#443=DIRECTION('',(-1.,0.,0.));
#444=DIRECTION('',(0.,0.,1.));
#445=DIRECTION('',(1.,0.,6.20253563578681E-017));
#446=DIRECTION('',(0.,0.,-1.));
#447=DIRECTION('',(-1.,0.,3.04315206662113E-017));
#448=DIRECTION('',(0.,0.,1.));
#449=DIRECTION('',(1.,0.,-3.90601795671661E-017));
#450=DIRECTION('',(0.,0.,1.));
#451=DIRECTION('',(6.12303176911189E-017,-1.,-3.90601795671661E-017));
#452=DIRECTION('',(0.,0.,1.));
#453=DIRECTION('',(-1.,-1.22460635382238E-016,-3.90601795671661E-017));
#454=DIRECTION('',(0.,0.,1.));
#455=DIRECTION('',(-1.83690953073357E-016,1.,-3.90601795671661E-017));
#456=DIRECTION('',(0.,0.,-1.));
#457=DIRECTION('',(-1.,0.,-5.47987672569179E-017));
#458=DIRECTION('',(0.,0.,1.));
#459=DIRECTION('',(1.,0.,8.558083255929E-018));
#460=CARTESIAN_POINT('',(0.,0.,0.));
#461=CARTESIAN_POINT('',(25.,0.,0.249999999999998));
#462=CARTESIAN_POINT('',(30.,0.,0.249999999999997));
#463=CARTESIAN_POINT('',(30.,0.,-8.88178419700125E-016));
#464=CARTESIAN_POINT('',(25.,0.,-8.88178419700125E-016));
#465=CARTESIAN_POINT('',(24.075,0.,9.42264973081037));
#466=CARTESIAN_POINT('',(24.075,0.,10.));
#467=CARTESIAN_POINT('',(25.075,0.,10.));
#468=CARTESIAN_POINT('',(0.,0.,0.));
#469=CARTESIAN_POINT('',(-13.5,0.,0.));
#470=CARTESIAN_POINT('',(19.,0.,0.));
#471=CARTESIAN_POINT('',(16.,0.,0.));
#472=CARTESIAN_POINT('',(1.16337603613126E-015,19.,0.));
#473=CARTESIAN_POINT('',(-3.,19.,0.));
#474=CARTESIAN_POINT('',(-19.,2.32675207226252E-015,0.));
#475=CARTESIAN_POINT('',(-22.,2.32675207226252E-015,0.));
#476=CARTESIAN_POINT('',(-3.49012810839378E-015,-19.,0.));
#477=CARTESIAN_POINT('',(-3.,-19.,0.));
#478=CARTESIAN_POINT('',(0.,0.,-8.88178419700125E-016));
#479=CARTESIAN_POINT('',(-25.,0.,-8.88178419700125E-016));
#480=CARTESIAN_POINT('',(0.,0.,0.));
#481=CARTESIAN_POINT('',(0.,0.,9.8));
#482=CARTESIAN_POINT('',(26.075,0.,9.8));
#483=CARTESIAN_POINT('',(0.,0.,0.449999999999998));
#484=CARTESIAN_POINT('',(-26.075,0.,0.449999999999998));
#485=CARTESIAN_POINT('',(0.,0.,0.));
#486=CARTESIAN_POINT('',(0.,0.,10.));
#487=CARTESIAN_POINT('',(13.5,0.,10.));
#488=CARTESIAN_POINT('',(-4.42235969524106E-015,24.075,10.));
#489=CARTESIAN_POINT('',(-4.2386687421677E-015,23.075,10.));
#490=CARTESIAN_POINT('',(-24.075,-2.94823979682737E-015,10.));
#491=CARTESIAN_POINT('',(-23.075,-2.82577916144514E-015,10.));
#492=CARTESIAN_POINT('',(1.47411989841369E-015,-24.075,10.));
#493=CARTESIAN_POINT('',(1.41288958072257E-015,-23.075,10.));
#494=CARTESIAN_POINT('',(24.075,0.,10.));
#495=CARTESIAN_POINT('',(23.075,0.,10.));
#496=CARTESIAN_POINT('',(0.,0.,10.));
#497=CARTESIAN_POINT('',(25.875,0.,10.));
#498=CARTESIAN_POINT('',(-3.49012810839378E-015,-19.,10.));
#499=CARTESIAN_POINT('',(-2.93905524917371E-015,-16.,10.));
#500=CARTESIAN_POINT('',(-19.,2.32675207226252E-015,10.));
#501=CARTESIAN_POINT('',(-16.,1.9593701661158E-015,10.));
#502=CARTESIAN_POINT('',(1.16337603613126E-015,19.,10.));
#503=CARTESIAN_POINT('',(9.79685083057902E-016,16.,10.));
#504=CARTESIAN_POINT('',(19.,0.,10.));
#505=CARTESIAN_POINT('',(16.,0.,10.));
#506=CARTESIAN_POINT('',(0.,0.,10.));
#507=CARTESIAN_POINT('',(0.,0.,0.5));
#508=CARTESIAN_POINT('',(-13.,0.,0.5));
#509=CARTESIAN_POINT('',(0.,0.,9.5));
#510=CARTESIAN_POINT('',(13.,0.,9.5));
#511=CARTESIAN_POINT('',(0.,0.,10.));
#512=CARTESIAN_POINT('',(19.,0.,10.));
#513=CARTESIAN_POINT('',(1.16337603613126E-015,19.,10.));
#514=CARTESIAN_POINT('',(-19.,2.32675207226252E-015,10.));
#515=CARTESIAN_POINT('',(-3.49012810839378E-015,-19.,10.));
#516=CARTESIAN_POINT('',(0.,0.,0.249999999999998));
#517=CARTESIAN_POINT('',(-25.,0.,0.249999999999998));
#518=CARTESIAN_POINT('',(0.,0.,0.));
#519=CARTESIAN_POINT('',(0.,0.,0.249999999999998));
#520=CARTESIAN_POINT('',(-25.875,0.,0.249999999999998));
#521=CARTESIAN_POINT('',(25.,0.,0.249999999999998));
#522=CARTESIAN_POINT('',(0.,0.,0.449999999999998));
#523=CARTESIAN_POINT('',(0.,0.,9.8));
#524=CARTESIAN_POINT('',(24.075,0.,9.42264973081037));
#525=CARTESIAN_POINT('',(24.075,0.,9.42264973081037));
#526=CARTESIAN_POINT('',(1.47411989841369E-015,-24.075,9.42264973081037));
#527=CARTESIAN_POINT('',(1.47411989841369E-015,-24.075,9.42264973081037));
#528=CARTESIAN_POINT('',(-24.075,-2.94823979682737E-015,9.42264973081037));
#529=CARTESIAN_POINT('',(-24.075,-2.94823979682737E-015,9.42264973081037));
#530=CARTESIAN_POINT('',(-4.42235969524106E-015,24.075,9.42264973081037));
#531=CARTESIAN_POINT('',(-4.42235969524106E-015,24.075,9.42264973081037));
#532=CARTESIAN_POINT('',(0.,0.,0.5));
#533=CARTESIAN_POINT('',(0.,0.,10.));
#534=MECHANICAL_DESIGN_GEOMETRIC_PRESENTATION_REPRESENTATION('',(#278,#279,
#280,#281,#282,#283,#284,#285),#535);
#535=(
GEOMETRIC_REPRESENTATION_CONTEXT(3)
GLOBAL_UNCERTAINTY_ASSIGNED_CONTEXT((#536))
GLOBAL_UNIT_ASSIGNED_CONTEXT((#542,#538,#537))
REPRESENTATION_CONTEXT('LA_9517_4842_01_A','TOP_LEVEL_ASSEMBLY_PART')
);
#536=UNCERTAINTY_MEASURE_WITH_UNIT(LENGTH_MEASURE(2.E-005),#542,
'DISTANCE_ACCURACY_VALUE','Maximum Tolerance applied to model');
#537=(
NAMED_UNIT(*)
SI_UNIT($,.STERADIAN.)
SOLID_ANGLE_UNIT()
);
#538=(
CONVERSION_BASED_UNIT('DEGREE',#540)
NAMED_UNIT(#539)
PLANE_ANGLE_UNIT()
);
#539=DIMENSIONAL_EXPONENTS(0.,0.,0.,0.,0.,0.,0.);
#540=PLANE_ANGLE_MEASURE_WITH_UNIT(PLANE_ANGLE_MEASURE(0.0174532925),#541);
#541=(
NAMED_UNIT(*)
PLANE_ANGLE_UNIT()
SI_UNIT($,.RADIAN.)
);
#542=(
LENGTH_UNIT()
NAMED_UNIT(*)
SI_UNIT(.MILLI.,.METRE.)
);
ENDSEC;
END-ISO-10303-21;
